Skip to main content

Reply to "Time For A Change guitar solo question."

actually the time for a change solo isn't that hard to learn. it's because it's broken up very slowly over mnay chord changes that it's easy. i have it tabbed out. i did this a few years ago, so any corrections welcome...

e|----------------------------------------------------------------------------|
B|----------------------------------------------------------------------------|
G|---------------------------------------------6-8-9----------------6---6-----|
D|---------2---------------------------6-9-7-6-------6-6\2-1-2-2/6-9-9-8------|
A|-2--4--2---2-2h4p2-1--1-2-1-0---4--3----------------------------------------|
E|----------------------------------------------------------------------------|


e|----------------------------------------------------------------------------|
B|----------------------------------------------------------------------------|
G|---8-9-9-9h11p9-11^12v�-11^12v�-11-9-11-11^12v11-9h11-13-13-13h14-14-14h16--|
D|-9--------------------------------------------------------------------------|
A|----------------------------------------------------------------------------|
E|----------------------------------------------------------------------------|


e|------------------16(wiggle itlots)-19(")-19-16-12-9------------------------|
B|------------16h17-----------------------------------------------------------|
G|-16 16h18-18----------------------------------------------------------------|
D|----------------------------------------------------------------------------|
A|----------------------------------------------------------------------------|
E|----------------------------------------------------------------------------|

obviously, it's not comin out to great given the limitations of the text system on the board, but hey..
    All times London, UK.

    ©1998-Eternity, Frenz.com. All post content is the copyrighted work of the person who wrote it. Please don't copy, reproduce, or publish anything you see written here without the author's permission.
×
×
×
×
×